ISO-10303-21;
HEADER;
FILE_DESCRIPTION (( 'STEP AP203' ),
    '1' );
FILE_NAME ('QB-CTZHWP-25.4-795-M.STEP',
    '2020-12-24T01:36:51',
    ( '' ),
    ( '' ),
    'SwSTEP 2.0',
    'SolidWorks 2020',
    '' );
FILE_SCHEMA (( 'CONFIG_CONTROL_DESIGN' ));
ENDSEC;

DATA;
#1 = EDGE_CURVE ( 'NONE', #32, #48, #132, .T. ) ;
#2 = CARTESIAN_POINT ( 'NONE',  ( -3.000000000000000000, 0.000000000000000000, 0.000000000000000000 ) ) ;
#3 = LINE ( 'NONE', #92, #81 ) ;
#4 = DIRECTION ( 'NONE',  ( -1.000000000000000000, -0.000000000000000000, -0.000000000000000000 ) ) ;
#5 = CC_DESIGN_PERSON_AND_ORGANIZATION_ASSIGNMENT ( #25, #24, ( #72 ) ) ;
#6 = CALENDAR_DATE ( 2020, 24, 12 ) ;
#7 = FACE_OUTER_BOUND ( 'NONE', #145, .T. ) ;
#8 = PERSON_AND_ORGANIZATION ( #33, #106 ) ;
#9 = DIRECTION ( 'NONE',  ( 0.000000000000000000, 0.000000000000000000, 1.000000000000000000 ) ) ;
#10 =( LENGTH_UNIT ( ) NAMED_UNIT ( * ) SI_UNIT ( .MILLI., .METRE. ) );
#11 =( NAMED_UNIT ( * ) PLANE_ANGLE_UNIT ( ) SI_UNIT ( $, .RADIAN. ) );
#12 = AXIS2_PLACEMENT_3D ( 'NONE', #166, #54, #85 ) ;
#13 = AXIS2_PLACEMENT_3D ( 'NONE', #2, #4, #88 ) ;
#14 = AXIS2_PLACEMENT_3D ( 'NONE', #135, #71, #121 ) ;
#15 = CC_DESIGN_APPROVAL ( #57, ( #72 ) ) ;
#16 = EDGE_CURVE ( 'NONE', #48, #32, #107, .T. ) ;
#17 = DIRECTION ( 'NONE',  ( -1.000000000000000000, -0.000000000000000000, -0.000000000000000000 ) ) ;
#18 = PERSON_AND_ORGANIZATION_ROLE ( 'classification_officer' ) ;
#19 = PLANE ( 'NONE',  #99 ) ;
#20 = PERSON_AND_ORGANIZATION_ROLE ( 'creator' ) ;
#21 = EDGE_LOOP ( 'NONE', ( #149, #148 ) ) ;
#22 = DATE_AND_TIME ( #97, #157 ) ;
#23 = LINE ( 'NONE', #45, #155 ) ;
#24 = PERSON_AND_ORGANIZATION_ROLE ( 'creator' ) ;
#25 = PERSON_AND_ORGANIZATION ( #33, #106 ) ;
#26 = LOCAL_TIME ( 9, 36, 51.00000000000000000, #125 ) ;
#27 = CC_DESIGN_SECURITY_CLASSIFICATION ( #56, ( #112 ) ) ;
#28 = CIRCLE ( 'NONE', #90, 15.00000000000000000 ) ;
#29 = CC_DESIGN_PERSON_AND_ORGANIZATION_ASSIGNMENT ( #8, #20, ( #112 ) ) ;
#30 = DIRECTION ( 'NONE',  ( -1.000000000000000000, -0.000000000000000000, -0.000000000000000000 ) ) ;
#31 = CLOSED_SHELL ( 'NONE', ( #152, #161, #67, #147 ) ) ;
#32 = VERTEX_POINT ( 'NONE', #35 ) ;
#33 = PERSON ( 'UNSPECIFIED', 'UNSPECIFIED', 'UNSPECIFIED', ('UNSPECIFIED'), ('UNSPECIFIED'), ('UNSPECIFIED') ) ;
#34 = CYLINDRICAL_SURFACE ( 'NONE', #12, 15.00000000000000000 ) ;
#35 = CARTESIAN_POINT ( 'NONE',  ( -3.000000000000000000, 0.000000000000000000, 15.00000000000000000 ) ) ;
#36 = CALENDAR_DATE ( 2020, 24, 12 ) ;
#37 = DATE_TIME_ROLE ( 'classification_date' ) ;
#38 = COORDINATED_UNIVERSAL_TIME_OFFSET ( 8, 0, .AHEAD. ) ;
#39 = AXIS2_PLACEMENT_3D ( 'NONE', #113, #127, #151 ) ;
#40 = CARTESIAN_POINT ( 'NONE',  ( 0.000000000000000000, 0.000000000000000000, 0.000000000000000000 ) ) ;
#41 = EDGE_CURVE ( 'NONE', #111, #84, #159, .T. ) ;
#42 = EDGE_LOOP ( 'NONE', ( #133, #96, #136, #51 ) ) ;
#43 = CC_DESIGN_PERSON_AND_ORGANIZATION_ASSIGNMENT ( #124, #18, ( #56 ) ) ;
#44 = CYLINDRICAL_SURFACE ( 'NONE', #14, 15.00000000000000000 ) ;
#45 = CARTESIAN_POINT ( 'NONE',  ( -1.614212418857619014, 1.836970198721029589E-15, -15.00000000000000000 ) ) ;
#46 = PERSON_AND_ORGANIZATION_ROLE ( 'design_supplier' ) ;
#47 = LOCAL_TIME ( 9, 36, 51.00000000000000000, #79 ) ;
#48 = VERTEX_POINT ( 'NONE', #146 ) ;
#49 = DATE_AND_TIME ( #141, #69 ) ;
#50 = DATE_AND_TIME ( #6, #52 ) ;
#51 = ORIENTED_EDGE ( 'NONE', *, *, #117, .F. ) ;
#52 = LOCAL_TIME ( 9, 36, 51.00000000000000000, #140 ) ;
#53 = CARTESIAN_POINT ( 'NONE',  ( -3.000000000000000888, 12.69999999999999929, 0.000000000000000000 ) ) ;
#54 = DIRECTION ( 'NONE',  ( -1.000000000000000000, -0.000000000000000000, -0.000000000000000000 ) ) ;
#55 = PLANE ( 'NONE',  #39 ) ;
#56 = SECURITY_CLASSIFICATION ( '', '', #73 ) ;
#57 = APPROVAL ( #91, 'UNSPECIFIED' ) ;
#58 = MANIFOLD_SOLID_BREP ( 'Ðý×', #31 ) ;
#59 = CARTESIAN_POINT ( 'NONE',  ( 3.000000000000000000, 0.000000000000000000, 0.000000000000000000 ) ) ;
#60 = COORDINATED_UNIVERSAL_TIME_OFFSET ( 8, 0, .AHEAD. ) ;
#61 = EDGE_CURVE ( 'NONE', #84, #111, #28, .T. ) ;
#62 = DIRECTION ( 'NONE',  ( 1.000000000000000000, 0.000000000000000000, 0.000000000000000000 ) ) ;
#63 = APPROVAL_PERSON_ORGANIZATION ( #75, #86, #171 ) ;
#64 = APPLICATION_CONTEXT ( 'configuration controlled 3d designs of mechanical parts and assemblies' ) ;
#65 = DIRECTION ( 'NONE',  ( 0.000000000000000000, 0.000000000000000000, 1.000000000000000000 ) ) ;
#66 = PERSON_AND_ORGANIZATION ( #33, #106 ) ;
#67 = ADVANCED_FACE ( 'NONE', ( #162 ), #34, .T. ) ;
#68 = APPROVAL ( #101, 'UNSPECIFIED' ) ;
#69 = LOCAL_TIME ( 9, 36, 51.00000000000000000, #38 ) ;
#70 = DESIGN_CONTEXT ( 'detailed design', #94, 'design' ) ;
#71 = DIRECTION ( 'NONE',  ( -1.000000000000000000, -0.000000000000000000, -0.000000000000000000 ) ) ;
#72 = PRODUCT_DEFINITION ( 'UNKNOWN', '', #112, #70 ) ;
#73 = SECURITY_CLASSIFICATION_LEVEL ( 'unclassified' ) ;
#74 = CARTESIAN_POINT ( 'NONE',  ( 3.000000000000000000, 1.836970198721029589E-15, -15.00000000000000000 ) ) ;
#75 = PERSON_AND_ORGANIZATION ( #33, #106 ) ;
#76 = DIRECTION ( 'NONE',  ( -1.000000000000000000, -0.000000000000000000, -0.000000000000000000 ) ) ;
#77 = ORIENTED_EDGE ( 'NONE', *, *, #41, .T. ) ;
#78 = CC_DESIGN_PERSON_AND_ORGANIZATION_ASSIGNMENT ( #168, #46, ( #112 ) ) ;
#79 = COORDINATED_UNIVERSAL_TIME_OFFSET ( 8, 0, .AHEAD. ) ;
#80 = APPROVAL_DATE_TIME ( #139, #57 ) ;
#81 = VECTOR ( 'NONE', #30, 1000.000000000000000 ) ;
#82 = FACE_OUTER_BOUND ( 'NONE', #21, .T. ) ;
#83 = AXIS2_PLACEMENT_3D ( 'NONE', #138, #108, #9 ) ;
#84 = VERTEX_POINT ( 'NONE', #164 ) ;
#85 = DIRECTION ( 'NONE',  ( 0.000000000000000000, 0.000000000000000000, 1.000000000000000000 ) ) ;
#86 = APPROVAL ( #102, 'UNSPECIFIED' ) ;
#87 = ORIENTED_EDGE ( 'NONE', *, *, #117, .T. ) ;
#88 = DIRECTION ( 'NONE',  ( 0.000000000000000000, 0.000000000000000000, 1.000000000000000000 ) ) ;
#89 =( NAMED_UNIT ( * ) SI_UNIT ( $, .STERADIAN. ) SOLID_ANGLE_UNIT ( ) );
#90 = AXIS2_PLACEMENT_3D ( 'NONE', #59, #17, #167 ) ;
#91 = APPROVAL_STATUS ( 'not_yet_approved' ) ;
#92 = CARTESIAN_POINT ( 'NONE',  ( -1.614212418857619014, 0.000000000000000000, 15.00000000000000000 ) ) ;
#93 = ORIENTED_EDGE ( 'NONE', *, *, #61, .F. ) ;
#94 = APPLICATION_CONTEXT ( 'configuration controlled 3d designs of mechanical parts and assemblies' ) ;
#95 = APPROVAL_PERSON_ORGANIZATION ( #156, #57, #173 ) ;
#96 = ORIENTED_EDGE ( 'NONE', *, *, #129, .T. ) ;
#97 = CALENDAR_DATE ( 2020, 24, 12 ) ;
#98 = DIRECTION ( 'NONE',  ( -1.000000000000000000, -0.000000000000000000, -0.000000000000000000 ) ) ;
#99 = AXIS2_PLACEMENT_3D ( 'NONE', #53, #131, #109 ) ;
#100 = APPLICATION_PROTOCOL_DEFINITION ( 'international standard', 'config_control_design', 1994, #64 ) ;
#101 = APPROVAL_STATUS ( 'not_yet_approved' ) ;
#102 = APPROVAL_STATUS ( 'not_yet_approved' ) ;
#103 = PERSON_AND_ORGANIZATION_ROLE ( 'design_owner' ) ;
#104 = CC_DESIGN_DATE_AND_TIME_ASSIGNMENT ( #172, #116, ( #72 ) ) ;
#105 = PRODUCT_DEFINITION_SHAPE ( 'NONE', 'NONE',  #72 ) ;
#106 = ORGANIZATION ( 'UNSPECIFIED', 'UNSPECIFIED', '' ) ;
#107 = CIRCLE ( 'NONE', #130, 15.00000000000000000 ) ;
#108 = DIRECTION ( 'NONE',  ( -1.000000000000000000, -0.000000000000000000, -0.000000000000000000 ) ) ;
#109 = DIRECTION ( 'NONE',  ( 0.000000000000000000, 0.000000000000000000, -1.000000000000000000 ) ) ;
#110 = PRODUCT_RELATED_PRODUCT_CATEGORY ( 'detail', '', ( #174 ) ) ;
#111 = VERTEX_POINT ( 'NONE', #74 ) ;
#112 = PRODUCT_DEFINITION_FORMATION_WITH_SPECIFIED_SOURCE ( 'ANY', '', #174, .NOT_KNOWN. ) ;
#113 = CARTESIAN_POINT ( 'NONE',  ( 3.000000000000000888, 12.69999999999999929, 0.000000000000000000 ) ) ;
#114 = CARTESIAN_POINT ( 'NONE',  ( -3.000000000000000000, 0.000000000000000000, 0.000000000000000000 ) ) ;
#115 = APPROVAL_DATE_TIME ( #49, #68 ) ;
#116 = DATE_TIME_ROLE ( 'creation_date' ) ;
#117 = EDGE_CURVE ( 'NONE', #84, #32, #3, .T. ) ;
#118 = APPLICATION_PROTOCOL_DEFINITION ( 'international standard', 'config_control_design', 1994, #94 ) ;
#119 = EDGE_LOOP ( 'NONE', ( #120, #77, #87, #150 ) ) ;
#120 = ORIENTED_EDGE ( 'NONE', *, *, #129, .F. ) ;
#121 = DIRECTION ( 'NONE',  ( 0.000000000000000000, 0.000000000000000000, 1.000000000000000000 ) ) ;
#122 = APPROVAL_DATE_TIME ( #50, #86 ) ;
#123 = ORIENTED_EDGE ( 'NONE', *, *, #41, .F. ) ;
#124 = PERSON_AND_ORGANIZATION ( #33, #106 ) ;
#125 = COORDINATED_UNIVERSAL_TIME_OFFSET ( 8, 0, .AHEAD. ) ;
#126 = CALENDAR_DATE ( 2020, 24, 12 ) ;
#127 = DIRECTION ( 'NONE',  ( -1.000000000000000000, 0.000000000000000000, -0.000000000000000000 ) ) ;
#128 = MECHANICAL_CONTEXT ( 'NONE', #64, 'mechanical' ) ;
#129 = EDGE_CURVE ( 'NONE', #111, #48, #23, .T. ) ;
#130 = AXIS2_PLACEMENT_3D ( 'NONE', #114, #98, #144 ) ;
#131 = DIRECTION ( 'NONE',  ( 1.000000000000000000, 0.000000000000000000, 0.000000000000000000 ) ) ;
#132 = CIRCLE ( 'NONE', #13, 15.00000000000000000 ) ;
#133 = ORIENTED_EDGE ( 'NONE', *, *, #61, .T. ) ;
#134 = UNCERTAINTY_MEASURE_WITH_UNIT (LENGTH_MEASURE( 1.000000000000000082E-05 ), #10, 'distance_accuracy_value', 'NONE');
#135 = CARTESIAN_POINT ( 'NONE',  ( -1.614212418857619014, 0.000000000000000000, 0.000000000000000000 ) ) ;
#136 = ORIENTED_EDGE ( 'NONE', *, *, #1, .F. ) ;
#137 = CC_DESIGN_APPROVAL ( #86, ( #56 ) ) ;
#138 = CARTESIAN_POINT ( 'NONE',  ( 3.000000000000000000, 0.000000000000000000, 0.000000000000000000 ) ) ;
#139 = DATE_AND_TIME ( #36, #26 ) ;
#140 = COORDINATED_UNIVERSAL_TIME_OFFSET ( 8, 0, .AHEAD. ) ;
#141 = CALENDAR_DATE ( 2020, 24, 12 ) ;
#142 = APPROVAL_PERSON_ORGANIZATION ( #170, #68, #153 ) ;
#143 = CC_DESIGN_PERSON_AND_ORGANIZATION_ASSIGNMENT ( #66, #103, ( #174 ) ) ;
#144 = DIRECTION ( 'NONE',  ( 0.000000000000000000, 0.000000000000000000, 1.000000000000000000 ) ) ;
#145 = EDGE_LOOP ( 'NONE', ( #93, #123 ) ) ;
#146 = CARTESIAN_POINT ( 'NONE',  ( -3.000000000000000000, 1.836970198721029589E-15, -15.00000000000000000 ) ) ;
#147 = ADVANCED_FACE ( 'NONE', ( #82 ), #19, .F. ) ;
#148 = ORIENTED_EDGE ( 'NONE', *, *, #16, .T. ) ;
#149 = ORIENTED_EDGE ( 'NONE', *, *, #1, .T. ) ;
#150 = ORIENTED_EDGE ( 'NONE', *, *, #16, .F. ) ;
#151 = DIRECTION ( 'NONE',  ( -0.000000000000000000, 0.000000000000000000, 1.000000000000000000 ) ) ;
#152 = ADVANCED_FACE ( 'NONE', ( #163 ), #44, .T. ) ;
#153 = APPROVAL_ROLE ( '' ) ;
#154 = SHAPE_DEFINITION_REPRESENTATION ( #105, #158 ) ;
#155 = VECTOR ( 'NONE', #76, 1000.000000000000000 ) ;
#156 = PERSON_AND_ORGANIZATION ( #33, #106 ) ;
#157 = LOCAL_TIME ( 9, 36, 51.00000000000000000, #60 ) ;
#158 = ADVANCED_BREP_SHAPE_REPRESENTATION ( 'QB-CTZHWP-25.4-795-M', ( #58, #160 ), #169 ) ;
#159 = CIRCLE ( 'NONE', #83, 15.00000000000000000 ) ;
#160 = AXIS2_PLACEMENT_3D ( 'NONE', #40, #65, #62 ) ;
#161 = ADVANCED_FACE ( 'NONE', ( #7 ), #55, .F. ) ;
#162 = FACE_OUTER_BOUND ( 'NONE', #119, .T. ) ;
#163 = FACE_OUTER_BOUND ( 'NONE', #42, .T. ) ;
#164 = CARTESIAN_POINT ( 'NONE',  ( 3.000000000000000000, 0.000000000000000000, 15.00000000000000000 ) ) ;
#165 = CC_DESIGN_APPROVAL ( #68, ( #112 ) ) ;
#166 = CARTESIAN_POINT ( 'NONE',  ( -1.614212418857619014, 0.000000000000000000, 0.000000000000000000 ) ) ;
#167 = DIRECTION ( 'NONE',  ( 0.000000000000000000, 0.000000000000000000, 1.000000000000000000 ) ) ;
#168 = PERSON_AND_ORGANIZATION ( #33, #106 ) ;
#169 =( GEOMETRIC_REPRESENTATION_CONTEXT ( 3 ) GLOBAL_UNCERTAINTY_ASSIGNED_CONTEXT ( ( #134 ) ) GLOBAL_UNIT_ASSIGNED_CONTEXT ( ( #10, #11, #89 ) ) REPRESENTATION_CONTEXT ( 'NONE', 'WORKASPACE' ) );
#170 = PERSON_AND_ORGANIZATION ( #33, #106 ) ;
#171 = APPROVAL_ROLE ( '' ) ;
#172 = DATE_AND_TIME ( #126, #47 ) ;
#173 = APPROVAL_ROLE ( '' ) ;
#174 = PRODUCT ( 'QB-CTZHWP-25.4-795-M', 'QB-CTZHWP-25.4-795-M', '', ( #128 ) ) ;
#175 = CC_DESIGN_DATE_AND_TIME_ASSIGNMENT ( #22, #37, ( #56 ) ) ;
ENDSEC;
END-ISO-10303-21;
